BER-LINN - ВПНС

  Вступление (вторая половина первого куплета):
 / ритм-гитара /

E||--3-----3-----2-----2-----|--3-----3-----2-----2-----|--3-----3-----2-----2-----|--3-----3-----2-----2-----||
B||-----3-----3-----3-----3--|-----3-----3-----3-----3--|-----3-----3-----3-----3--|-----3-----3-----3-----3--||
G||--------------------------|--------------------------|--------------------------|--------------------------||
D||--------------------------|--------------------------|--------------------------|--------------------------||
A||--------------------------|--------------------------|--------------------------|--------------------------||
E||--------------------------|--------------------------|--------------------------|--------------------------||

  Проигрыш №1 (после вступления):
 / ритм-гитара x2 /

     G                          C                    Em                         D                   
E||------------------------|----------------------|------------------------|----------------------||
B||------------------------|----------------------|------------------------|----------------------||
G||------------------------|----5--5----5----5----|------------------------|----7--7----7----7----||
D||--5--5--5--5--5----5----|----5--5----5----5----|--2--2--2--2--2----2----|----7--7----7----7----||
A||--5--5--5--5--5----5----|----3--3----3----3----|--2--2--2--2--2----2----|----5--5----5----5----||
E||--3--3--3--3--3----3----|----3--3----3----3----|--0--0--0--0--0----0----|----5--5----5----5----||

  Второй куплет (со второй половины):
 / ритм-гитара (x2)/
 
     G                                                    Em                        D                        
E||-------------------------|--------------------------|-------------------------|-------------------------||
B||-------------------------|--------------------------|-------------------------|-------------------------||
G||-------------------------|--------------------------|-------------------------|--7----------------------||
D||--5----------------------|--------------------------|--2----------------------|--7----7--7--7--7--7--7--||
A||--5----5--5--5--5--5--5--|--5--5--5--5--5--5--5--5--|--2----2--2--2--2--2--2--|--5----5--5--5--5--5--5--||
E||--3----3--3--3--3--3--3--|--3--3--3--3--3--3--3--3--|--0----0--0--0--0--0--0--|-------------------------||
  Припев:
 / ритм-гитара /
 
     G                   C                   Em                  D                   G                 
E||-------------------|-------------------|-------------------|-------------------|-------------------|
B||-------------------|-------------------|-------------------|-------------------|-------------------|
G||-------------------|--5----------------|-------------------|--7----------------|-------------------|
D||--5----------------|--5----------------|--2----------------|--7----------------|--5----------------|
A||--5----------------|--3----------------|--2----------------|--5----------------|--5----------------|
E||--3----------------|--3----------------|--0----------------|-------------------|--3----------------|


  C                   Em                  D                                                                       
-------------------|-------------------|-------------------|-----------------|-----------------|-----------------|
-------------------|-------------------|-------------------|-----------------|-----------------|-----------------|
--5----------------|-------------------|--7----------------|-----------------|-----------------|-----------------|
--5----------------|--2----------------|--7----------------|-----------------|--5--5--5--5--5--|-----------------|
--3----------------|--2----------------|--5----------------|--5--5--5--5--5--|--3--3--3--3--3--|--2--2--2--2--2--|
--3----------------|--0----------------|-------------------|--3--3--3--3--3--|-----------------|--0--0--0--0--0--|


                                                                                           
-----------------|-----------------|-----------------|-----------------|-------------------||
-----------------|-----------------|-----------------|-----------------|-------------------||
-----------------|-----------------|-----------------|-----------------|-------------------||
--7--7--7--7--7--|-----------------|--5--5--5--5--5--|-----------------|--7--7--7--7-------||
--5--5--5--5--5--|--5--5--5--5--5--|--3--3--3--3--3--|--2--2--2--2--2--|--5--5--5--5--5----||
-----------------|--3--3--3--3--3--|-----------------|--0--0--0--0--0--|-------------------||
  Соло:
 / соло-гитара /
 
E||-----------------------|-----------------------|-----------------------|-----------------------|
B||-----------------------|-----------------------|-----------------------|-----------------------|
G||--4--5--4----0----0----|--4--5--4----0----0----|--4--5--4----0----0----|--4--5--4--------------|
D||-----------------------|-----------------------|-----------------------|-------------4----7----|
A||-----------------------|-----------------------|-----------------------|-----------------------|
E||-----------------------|-----------------------|-----------------------|-----------------------|

                                                                                                 
-----------------------|-----------------------|------------------------|-----------------------|
-----------------------|-----------------------|------------------------|-----------------------|
--4--5--4----0----0----|--4--5--4----0----0----|--4--5--4----0----0--0--|--4--5--4----7----5----|
-----------------------|-----------------------|------------------------|-----------------------|
-----------------------|-----------------------|------------------------|-----------------------|
-----------------------|-----------------------|------------------------|-----------------------|

                                                                                                 
-----------------------|-----------------------|------------------------|-----------------------|
-----------------------|-----------------------|------------------------|-----------------------|
--4--5--4----0----0----|--4--5--4----0----0----|--4--5--4----0----0--0--|--4--5--4--------------|
-----------------------|-----------------------|------------------------|-------------4----7----|
-----------------------|-----------------------|------------------------|-----------------------|
-----------------------|-----------------------|------------------------|-----------------------|

                                                                                                                      
-----------------------|-----------------------|------------------------|-----------------------|-------------------||
-----------------------|-----------------------|------------------------|-----------------------|-------------------||
--4--5--4----0----0----|--4--5--4----0----0----|--4--5--4----0----0--0--|--4--5--4--------------|-------------------||
-----------------------|-----------------------|------------------------|-------------4----7----|--5----------------||
-----------------------|-----------------------|------------------------|-----------------------|-------------------||
-----------------------|-----------------------|------------------------|-----------------------|-------------------||

 / ритм-гитара /
 
     G                       G                       Em                      D                      
E||-----------------------|-----------------------|-----------------------|-----------------------||
B||-----------------------|-----------------------|-----------------------|-----------------------||
G||-----------------------|-----------------------|-----------------------|--7--7--7----7----7----||
D||--5--5--5----5----5----|--5--5--5----5----5----|--2--2--2----2----2----|--7--7--7----7----7----||
A||--5--5--5----5----5----|--5--5--5----5----5----|--2--2--2----2----2----|--5--5--5----5----5----||
E||--3--3--3----3----3----|--3--3--3----3----3----|--0--0--0----0----0----|-----------------------||
  Припев №2 ("каждый вечер в интернете..."):
 / ритм-гитара /
 
     G                   C        D           G                   C        D         
E||-------------------|--------------------|-------------------|--------------------|
B||-------------------|--------------------|-------------------|--------------------|
G||-------------------|--5--------7--------|-------------------|--5--------7--------|
D||--5----------------|--5--------7--------|--5----------------|--5--------7--------|
A||--5----------------|--3--------5--------|--5----------------|--3--------5--------|
E||--3----------------|--3--------5--------|--3----------------|--3--------5--------|

                                                                                                                 
----------------------------|--------------------------|----------------------------|--------------------------||
--8-----8-----10-----10-----|--8-----8-----7-----7-----|--8-----8-----10-----10-----|--8-----8-----7-----7-----||
-----7-----7------7------7--|-----7-----7-----7-----7--|-----7-----7------7------7--|-----7-----7-----7-----7--||
----------------------------|--------------------------|----------------------------|--------------------------||
----------------------------|--------------------------|----------------------------|--------------------------||
----------------------------|--------------------------|----------------------------|--------------------------||



2003 [vpns].ru | created by