BER-LINN - Последний День Лета

  Вступление:
 / соло часть 1 (x2) /
    
E||----------------------|---------------------|----------------------|---------------------------|
B||--8-------10----------|--8-------7----------|--8-------10----------|--8-------10-------7-8-10--|
G||------7---------------|------7--------------|------7---------------|------7---------7----------|
D||----------------------|---------------------|----------------------|---------------------------|
A||----------------------|---------------------|----------------------|---------------------------|
E||----------------------|---------------------|----------------------|---------------------------|

 / соло часть 2 (x2) /
 
E||-----------------------|----------------------|-----------------------|----------------------------|
B||-----8-----10----------|-----8-----7----------|-----8-----10----------|-----8-----10-------7-8-10--|
G||--7-----7--------------|--7-----7-------------|--7-----7--------------|--7-----7--------7----------|
D||-----------------------|----------------------|-----------------------|----------------------------|
A||-----------------------|----------------------|-----------------------|----------------------------|
E||-----------------------|----------------------|-----------------------|----------------------------|

 / ритм-гитара (x4) /
                                                                            
     G                          D                          Em                         D                        
E||--------------------------|--------------------------|--------------------------|--------------------------|
B||--------------------------|--------------------------|--------------------------|--------------------------|
G||--------------------------|--------------------------|--------------------------|--------------------------|
D||--------------------------|--7--7--7--7--7--7--7--7--|--9--9--9--9--9--9--9--9--|--7--7--7--7--7--7--7--7--|
A||--5--5--5--5--5--5--5--5--|--5--5--5--5--5--5--5--5--|--7--7--7--7--7--7--7--7--|--5--5--5--5--5--5--5--5--|
E||--3--3--3--3--3--3--3--3--|--------------------------|--------------------------|--------------------------|

  Куплет:
 / ритм-гитара /
 
     G                     D                     Em                    D                    
E||---------------------|---------------------|---------------------|----------------------|
B||---------------------|---------------------|---------------------|----------------------|
G||---------------------|--7--7--7------------|---------------------|--7--7--7-------------|
D||--5--5--5------------|--7--7--7------------|--2--2--2------------|--7--7--7-------------|
A||--5--5--5------------|--5--5--5------------|--2--2--2------------|--5--5--5-------------|
E||--3--3--3------------|---------------------|--0--0--0------------|-----------------1----|


  G                         D                         Em                        D                       
-------------------------|-------------------------|-------------------------|-------------------------|
-------------------------|-------------------------|-------------------------|-------------------------|
-------------------------|--7--7--7-----------7----|--9--9--9-----------9----|--7--7--7-----------7----|
--5--5--5-----------5----|--7--7--7--7--7--7--7----|--9--9--9--9--9--9--9----|--7--7--7--7--7--7--7----|
--5--5--5--5--5--5--5----|--5--5--5--5--5--5--5----|--7--7--7--7--7--7--7----|--5--5--5--5--5--5--5----|
--3--3--3--3--3--3--3----|-------------------------|-------------------------|-------------------------|
  Припев:
 / ритм-гитара (x2)/
 
E||--------------------------|--------------------------|--------------------------|--------------------------|
B||--------------------------|--------------------------|--------------------------|--------------------------|
G||--------------------------|--------------------------|--------------------------|--------------------------|
D||--5--5--5--5--5--5--5--0--|--4--4--4--4--4--4--4--0--|--5--5--5--5--5--5--5--5--|--5--5--5--5--5--5--5--4--|
A||--5--5--5--5--5--5--5--5--|--5--5--5--5--5--5--5--0--|--2--2--2--2--2--2--2--0--|--3--3--3--3--3--3--3-----|
E||--------------------------|--------------------------|--------------------------|--------------------------|
  Проигрыш №1 (после первого припева):
 / ритм-гитара (2 раза с перегрузом и 2 раза на чистом звуке)/
 
     G                          D                          Em                         C                        
E||------------------------|------------------------|------------------------|------------------------|
B||------------------------|------------------------|------------------------|------------------------|
G||------------------------|------------------------|------------------------|------------------------|
D||--5-------5-------5-----|--4-------4-------4-----|--5-------5-------5-----|--5-------5-------5--4--|
A||------5-------5------5--|------5-------5------5--|------2-------2------2--|------3-------3---------|
E||------------------------|------------------------|------------------------|------------------------|
  Соло №1 (после второго припева):
 / соло-гитара /
 
E||--------------------------------|--------------------------------|--------------------------------|
B||--13--12------12--------12------|--13--12------12--------12------|--13--12------12--------12------|
G||----------14--------12------12--|----------14--------12------12--|----------14--------12------12--|
D||--------------------------------|--------------------------------|--------------------------------|
A||--------------------------------|--------------------------------|--------------------------------|
E||--------------------------------|--------------------------------|--------------------------------|

                                                                                               
----------------------------------|--------------------------------|--------------------------------|
--15--13--12------------------12--|--13--12------12--------12------|--13--12------12--------12------|
--------------12----12-12-14------|----------14--------12------12--|----------14--------12------12--|
----------------------------------|--------------------------------|--------------------------------|
----------------------------------|--------------------------------|--------------------------------|
----------------------------------|--------------------------------|--------------------------------|

                                                      
--------------------------------|--15--15--14--15----||
--13--12------12--------12------|--------------------||
----------14--------12------12--|--------------------||
--------------------------------|--------------------||
--------------------------------|--------------------||
--------------------------------|--------------------||

 / ритм-гитара (x2)/
 
     G                          D                          Em                         C                        
E||--------------------------|--------------------------|--------------------------|--------------------------|
B||--------------------------|--------------------------|--------------------------|--------------------------|
G||--------------------------|--7--7--7--7--7--7--7--7--|--------------------------|--5--5--5--5--5--5--5--5--|
D||--5--5--5--5--5--5--5--5--|--7--7--7--7--7--7--7--7--|--2--2--2--2--2--2--2--2--|--5--5--5--5--5--5--5--5--|
A||--5--5--5--5--5--5--5--5--|--5--5--5--5--5--5--5--5--|--2--2--2--2--2--2--2--2--|--3--3--3--3--3--3--3--3--|
E||--3--3--3--3--3--3--3--3--|--------------------------|--0--0--0--0--0--0--0--0--|--------------------------|
  Проигрыш №2 (во второй части басового соло):
 / ритм-гитара (на чистом звуке) /
 
     G                       D                       Em                      C                     
E||-----------------------|-----------------------|-----------------------|-----------------------|
B||-----------------------|-----------------------|-----------------------|-----------------------|
G||-----------------------|----------7------------|----------9------------|----------5------------|
D||----------5------------|------7----------------|------9----------------|------5----------------|
A||------5----------------|--5--------------------|--7--------------------|--3--------------------|
E||--3--------------------|-----------------------|-----------------------|-----------------------|


  G                       D                       Em                      C                  
-----------------------|-----------------------|-----------------------|-------------------||
-----------------------|-----------------------|-----------------------|-------------------||
-----------------------|----------7------------|----------9------------|--5----------------||
----------5------------|------7----------------|------9----------------|--5----------------||
------5----------------|--5--------------------|-----------------------|--3----------------||
--3--------------------|-----------------------|--0--------------------|-------------------||
  Соло №2 (в конце):
 / соло-гитара /
 
E||--------------------------------|--------------------------------|--------------------------------|
B||--13--12------12--------12------|--13--12------12--------12------|--13--12------12--------12------|
G||----------14--------12------12--|----------14--------12------12--|----------14--------12------12--|
D||--------------------------------|--------------------------------|--------------------------------|
A||--------------------------------|--------------------------------|--------------------------------|
E||--------------------------------|--------------------------------|--------------------------------|


                                                                                                     
----------------------------------|--------------------------------|--------------------------------|
--15--13--12------------------12--|--13--12------12--------12------|--13--12------12--------12------|
--------------12----12-12-14------|----------14--------12------12--|----------14--------12------12--|
----------------------------------|--------------------------------|--------------------------------|
----------------------------------|--------------------------------|--------------------------------|
----------------------------------|--------------------------------|--------------------------------|


                                                                                                           
--------------------------------|----------------------------------------|--------------------------------|
--13--12------12--------12------|--13-13---------13-13---------13-15-13--|--13--12------12--------12------|
----------14--------12------12--|--------12--12--------12--12------------|----------14--------12------12--|
--------------------------------|----------------------------------------|--------------------------------|
--------------------------------|----------------------------------------|--------------------------------|
--------------------------------|----------------------------------------|--------------------------------|


                                                                                                     
--------------------------------|--------------------------------|----------------------------------|
--13--12------12--------12------|--13--12------12--------12------|--15--13--12------------------12--|
----------14--------12------12--|----------14--------12------12--|--------------12----12-12-14------|
--------------------------------|--------------------------------|----------------------------------|
--------------------------------|--------------------------------|----------------------------------|
--------------------------------|--------------------------------|----------------------------------|


                                                                                                                       
--------------------------------|--------------------------------|--------------------------------|------------------||
--13--12------12--------12------|--13--12------12--------12------|--13--12------12--------12------|--13--13--12--13--||
----------14--------12------12--|----------14--------12------12--|----------14--------12------12--|--12--12--12--12--||
--------------------------------|--------------------------------|--------------------------------|------------------||
--------------------------------|--------------------------------|--------------------------------|------------------||
--------------------------------|--------------------------------|--------------------------------|------------------||

 / ритм-гитара (x4)/
 
     G                          D                          Em                         C                        
E||--------------------------|--------------------------|--------------------------|--------------------------|
B||--------------------------|--------------------------|--------------------------|--------------------------|
G||--------------------------|--7--7--7--7--7--7--7--7--|--------------------------|--5--5--5--5--5--5--5--5--|
D||--5--5--5--5--5--5--5--5--|--7--7--7--7--7--7--7--7--|--2--2--2--2--2--2--2--2--|--5--5--5--5--5--5--5--5--|
A||--5--5--5--5--5--5--5--5--|--5--5--5--5--5--5--5--5--|--2--2--2--2--2--2--2--2--|--3--3--3--3--3--3--3--3--|
E||--3--3--3--3--3--3--3--3--|--------------------------|--0--0--0--0--0--0--0--0--|--------------------------|



2003 [vpns].ru | created by