BER-LINN - Настя

  Соло:
 / соло часть 1 (x2)/
    
E||--------------------------|--------------------------|--------------------------|--------------------------|
B||--------------------------|--------------------------|--------------------------|--------------------------|
G||--4--4--4--4--4--4--4--4--|--------------5--5--4--4--|--------------------------|--7--7--7--7--5--5--5--5--|
D||--------------------------|--7--7--7--7--------------|--5--5--5--5--5--5--5--5--|--------------------------|
A||--------------------------|--------------------------|--------------------------|--------------------------|
E||--------------------------|--------------------------|--------------------------|--------------------------|

 / соло часть 2 (x2)/
    
   --------------------------|--------------------------|--------------------------|--------------------------|
   --------------------------|--------------------------|--------------------------|--------------------------|
   --------------4-----4-----|--------------------------|--------------------------|--------------------------|
   --5--5--5--5-----5-----5--|--4--4--4--4--7--7--4--4--|--5--5--5--5--5--5--5--5--|--4--5--5--5--4--5--5--5--|
   --------------------------|--------------------------|--------------------------|--------------------------|
   --------------------------|--------------------------|--------------------------|--------------------------|

 / ритм-гитара (x4)/
                                                                                                                   
     G                          D                          Em                         C                        
E||--------------------------|--------------------------|--------------------------|--------------------------|
B||--------------------------|--------------------------|--------------------------|--------------------------|
G||--4--4--4--4--4--4--4--4--|--7--7--7--7--7--7--7--7--|--0--0--0--0--0--0--0--0--|--5--5--5--5--5--5--5--5--|
D||--5--5--5--5--5--5--5--5--|--7--7--7--7--7--7--7--7--|--2--2--2--2--2--2--2--2--|--5--5--5--5--5--5--5--5--|
A||--5--5--5--5--5--5--5--5--|--5--5--5--5--5--5--5--5--|--2--2--2--2--2--2--2--2--|--3--3--3--3--3--3--3--3--|
E||--3--3--3--3--3--3--3--3--|--------------------------|--0--0--0--0--0--0--0--0--|--------------------------|
  Второй куплет:
 / бас (x2)/
 
G||--------------------------|--------------------------|--------------------------|--------------------------|
D||--------------------------|--------------------------|--------------------------|--------------------------|
A||--------------------------|--5--5--5--5--5--5--5--5--|--------------------------|--3--3--3--3--3--3--3--3--|
E||--3--3--3--3--3--3--3--3--|--------------------------|--0--0--0--0--0--0--0--0--|--------------------------|

 / гитара (вторая половина)/
 
     G                         D                         Em                        C                         
E||-------------------------|-------------------------|-------------------------|--------------------------|
B||-------------------------|-------------------------|-------------------------|--------------------------|
G||-------------------------|--7--------7--------7----|--9--------9--------9----|--5--------5--------5--5--|
D||--5--------5--------5----|--7--------7--------7----|--9--------9--------9----|--5--------5--------5--5--|
A||--5--------5--------5----|--5--5--5--5--5--5--5----|--7--7--7--7--7--7--7----|--3--3--3--3--3--3--3--3--|
E||--3--3--3--3--3--3--3----|-------------------------|-------------------------|--------------------------|
  Припев (x4):
     G                          D                          C                          D                        
E||--------------------------|--------------------------|--------------------------|--------------------------|
B||--------------------------|--------------------------|--------------------------|--------------------------|
G||--------------------------|--7--7--7--7--7--7--7--7--|--5--5--5--5--5--5--5--5--|--7--7--7--7--7--7--7--7--|
D||--5--5--5--5--5--5--5--5--|--7--7--7--7--7--7--7--7--|--5--5--5--5--5--5--5--5--|--7--7--7--7--7--7--7--7--|
A||--5--5--5--5--5--5--5--5--|--5--5--5--5--5--5--5--5--|--3--3--3--3--3--3--3--3--|--5--5--5--5--5--5--5--5--|
E||--3--3--3--3--3--3--3--3--|--------------------------|--------------------------|--------------------------|
  Припев №2 (x4):
     G                         D                         C                         D                       
E||-------------------------|-------------------------|-------------------------|-------------------------|
B||-------------------------|-------------------------|-------------------------|-------------------------|
G||-------------------------|--7--------7--------7----|--5--------5--------5----|--7--------7--------7----|
D||--5--------5--------5----|--7--------7--------7----|--5--------5--------5----|--7--------7--------7----|
A||--5--------5--------5----|--5--5--5--5--5--5--5----|--3--3--3--3--3--3--3----|--5--5--5--5--5--5--5----|
E||--3--3--3--3--3--3--3----|-------------------------|-------------------------|-------------------------|



2003 [vpns].ru | created by