BER-LINN - Даша

  Вступление (x2):
 / ритм-гитара /
     A        F#m         D        E           A        F#m         D        E         
E||--------------------|--------------------|--------------------|--------------------|
B||--------------------|--------------------|--------------------|--------------------|
G||--6--------2--------|--7--------9--------|--6--------2--------|--7--------9--------|
D||--7--------4--------|--7--------9--------|--7--------4--------|--7--------9--------|
A||--7--------4--------|--5--------7--------|--7--------4--------|--5--------7--------|
E||--5--------2--------|--5--------7--------|--5--------2--------|--5--------7--------|

 / соло /
                                                                                                                   
E||--5-----5-----7-----7-----|--5-----5-----4-----4-----|--5-----5-----9-----9-----|--10-----10-----12-----10--9--|
B||-----5-----5-----5-----5--|-----5-----5-----5-----5--|-----5-----5-----7-----7--|------7------7------9---------|
G||--------------------------|--------------------------|--------------------------|------------------------------|
D||--------------------------|--------------------------|--------------------------|------------------------------|
A||--------------------------|--------------------------|--------------------------|------------------------------|
E||--------------------------|--------------------------|--------------------------|------------------------------|
  Куплет:
     A                   F#m				          D                          
E||-------------------|----------------------------|----------------------------|
B||-------------------|----------------------------|----------------------------|
G||--6----------------|--2--2-2--2-2--2--2-2--2-2--|--7--7-7--7-7--7--7-7--7-7--|
D||--7----------------|--4--4-4--4-4--4--4-4--4-4--|--7--7-7--7-7--7--7-7--7-7--|
A||--7----------------|--4--4-4--4-4--4--4-4--4-4--|--5--5-5--5-5--5--5-5--5-5--|
E||--5----------------|--2--2-2--2-2--2--2-2--2-2--|----------------------------|


  A            E               A                            F#m         
----------------------------|----------------------------|----------------------------|
----------------------------|----------------------------|----------------------------|
---------------9--9-9--9-9--|----------------------------|--2--2-2--2-2--2--2-2--2-2--|
--7--7-7--7-7--9--9-9--9-9--|--7--7-7--7-7--7--7-7--7-7--|--4--4-4--4-4--4--4-4--4-4--|
--7--7-7--7-7--7--7-7--7-7--|--7--7-7--7-7--7--7-7--7-7--|--4--4-4--4-4--4--4-4--4-4--|
--5--5-5--5-5---------------|--5--5-5--5-5--5--5-5--5-5--|--2--2-2--2-2--2--2-2--2-2--|


  D                            A            E               D                          
----------------------------|----------------------------|----------------------------|
----------------------------|----------------------------|----------------------------|
--7--7-7--7-7--7--7-7--7-7--|---------------9--9-9--9-9--|--7--7-7--7-7--7--7-7--7-7--|
--7--7-7--7-7--7--7-7--7-7--|--7--7-7--7-7--9--9-9--9-9--|--7--7-7--7-7--7--7-7--7-7--|
--5--5-5--5-5--5--5-5--5-5--|--7--7-7--7-7--7--7-7--7-7--|--5--5-5--5-5--5--5-5--5-5--|
----------------------------|--5--5-5--5-5---------------|----------------------------|


  E                                                
-------------------|
-------------------|
--9----------------|
--9----------------|
--7----------------|
--7----------------|
  Припев (x2):
     A          D   E         A          D   E         A          D   E         D          E           
E||------------------------|------------------------|------------------------|------------------------|
B||--2---2---2-------------|--2---2---2-------------|--2---2---2-------------|------------------------|
G||--2---2---2--7---9---9--|--2---2---2--7---9---9--|--2---2---2--7---9---9--|--7---7---7--9---9---9--|
D||--2---2---2--7---9---9--|--2---2---2--7---9---9--|--2---2---2--7---9---9--|--7---7---7--9---9---9--|
A||--0---4---0--5---7---7--|--0---4---0--5---7---7--|--0---4---0--5---7---7--|--5---5---5--7---7---7--|
E||------------------------|------------------------|------------------------|------------------------|



2003 [vpns].ru | created by